ISO-10303-21;
HEADER;
/* Generated by software containing ST-Developer
 * from STEP Tools, Inc. (www.steptools.com) 
 */

FILE_DESCRIPTION(
/* description */ (''),
/* implementation_level */ '2;1');

FILE_NAME(
/* name */ '\\\\server1\\dwgs\\product\\IHI\\2015-1A Standoff Insulato
rs.stp',
/* time_stamp */ '2014-11-18T15:28:24-05:00',
/* author */ ('FBarcia'),
/* organization */ (''),
/* preprocessor_version */ 'ST-DEVELOPER v15.6',
/* originating_system */ 'Autodesk Inventor 2015',
/* authorisation */ '');

FILE_SCHEMA (('AUTOMOTIVE_DESIGN { 1 0 10303 214 3 1 1 }'));
ENDSEC;

DATA;
#10=MECHANICAL_DESIGN_GEOMETRIC_PRESENTATION_REPRESENTATION('',(#13),#349);
#11=SHAPE_REPRESENTATION_RELATIONSHIP('SRR','None',#361,#12);
#12=ADVANCED_BREP_SHAPE_REPRESENTATION($,(#14),#348);
#13=STYLED_ITEM('',(#370),#14);
#14=MANIFOLD_SOLID_BREP('Solid1',#193);
#15=PLANE('',#212);
#16=PLANE('',#218);
#17=PLANE('',#224);
#18=PLANE('',#227);
#19=TOROIDAL_SURFACE('',#207,0.663269087500727,0.03125);
#20=TOROIDAL_SURFACE('',#213,0.84375,0.03125);
#21=TOROIDAL_SURFACE('',#219,0.663269087500727,0.03125);
#22=TOROIDAL_SURFACE('',#225,0.84375,0.03125);
#23=CYLINDRICAL_SURFACE('',#200,0.126);
#24=CYLINDRICAL_SURFACE('',#206,0.126);
#25=CYLINDRICAL_SURFACE('',#216,0.875);
#26=FACE_BOUND('',#60,.T.);
#27=FACE_BOUND('',#62,.T.);
#28=FACE_BOUND('',#65,.T.);
#29=FACE_BOUND('',#67,.T.);
#30=FACE_BOUND('',#69,.T.);
#31=FACE_BOUND('',#71,.T.);
#32=FACE_BOUND('',#73,.T.);
#33=FACE_BOUND('',#75,.T.);
#34=FACE_BOUND('',#77,.T.);
#35=FACE_BOUND('',#79,.T.);
#36=FACE_BOUND('',#81,.T.);
#37=FACE_BOUND('',#83,.T.);
#38=FACE_BOUND('',#85,.T.);
#39=FACE_BOUND('',#87,.T.);
#40=FACE_BOUND('',#89,.T.);
#41=FACE_OUTER_BOUND('',#58,.T.);
#42=FACE_OUTER_BOUND('',#59,.T.);
#43=FACE_OUTER_BOUND('',#61,.T.);
#44=FACE_OUTER_BOUND('',#63,.T.);
#45=FACE_OUTER_BOUND('',#64,.T.);
#46=FACE_OUTER_BOUND('',#66,.T.);
#47=FACE_OUTER_BOUND('',#68,.T.);
#48=FACE_OUTER_BOUND('',#70,.T.);
#49=FACE_OUTER_BOUND('',#72,.T.);
#50=FACE_OUTER_BOUND('',#74,.T.);
#51=FACE_OUTER_BOUND('',#76,.T.);
#52=FACE_OUTER_BOUND('',#78,.T.);
#53=FACE_OUTER_BOUND('',#80,.T.);
#54=FACE_OUTER_BOUND('',#82,.T.);
#55=FACE_OUTER_BOUND('',#84,.T.);
#56=FACE_OUTER_BOUND('',#86,.T.);
#57=FACE_OUTER_BOUND('',#88,.T.);
#58=EDGE_LOOP('',(#138));
#59=EDGE_LOOP('',(#139));
#60=EDGE_LOOP('',(#140));
#61=EDGE_LOOP('',(#141));
#62=EDGE_LOOP('',(#142));
#63=EDGE_LOOP('',(#143));
#64=EDGE_LOOP('',(#144));
#65=EDGE_LOOP('',(#145));
#66=EDGE_LOOP('',(#146));
#67=EDGE_LOOP('',(#147));
#68=EDGE_LOOP('',(#148));
#69=EDGE_LOOP('',(#149));
#70=EDGE_LOOP('',(#150));
#71=EDGE_LOOP('',(#151));
#72=EDGE_LOOP('',(#152));
#73=EDGE_LOOP('',(#153));
#74=EDGE_LOOP('',(#154));
#75=EDGE_LOOP('',(#155));
#76=EDGE_LOOP('',(#156));
#77=EDGE_LOOP('',(#157));
#78=EDGE_LOOP('',(#158));
#79=EDGE_LOOP('',(#159));
#80=EDGE_LOOP('',(#160));
#81=EDGE_LOOP('',(#161));
#82=EDGE_LOOP('',(#162));
#83=EDGE_LOOP('',(#163));
#84=EDGE_LOOP('',(#164));
#85=EDGE_LOOP('',(#165));
#86=EDGE_LOOP('',(#166));
#87=EDGE_LOOP('',(#167));
#88=EDGE_LOOP('',(#168));
#89=EDGE_LOOP('',(#169));
#90=CIRCLE('',#196,0.126);
#91=CIRCLE('',#198,0.1535);
#92=CIRCLE('',#199,0.126);
#93=CIRCLE('',#202,0.126);
#94=CIRCLE('',#204,0.1535);
#95=CIRCLE('',#205,0.126);
#96=CIRCLE('',#208,0.693534491644378);
#97=CIRCLE('',#209,0.663269087500727);
#98=CIRCLE('',#211,0.8);
#99=CIRCLE('',#214,0.84375);
#100=CIRCLE('',#215,0.875);
#101=CIRCLE('',#217,0.875);
#102=CIRCLE('',#220,0.693534491644379);
#103=CIRCLE('',#221,0.663269087500727);
#104=CIRCLE('',#223,0.8);
#105=CIRCLE('',#226,0.84375);
#106=VERTEX_POINT('',#298);
#107=VERTEX_POINT('',#301);
#108=VERTEX_POINT('',#303);
#109=VERTEX_POINT('',#307);
#110=VERTEX_POINT('',#310);
#111=VERTEX_POINT('',#312);
#112=VERTEX_POINT('',#316);
#113=VERTEX_POINT('',#318);
#114=VERTEX_POINT('',#321);
#115=VERTEX_POINT('',#325);
#116=VERTEX_POINT('',#327);
#117=VERTEX_POINT('',#330);
#118=VERTEX_POINT('',#334);
#119=VERTEX_POINT('',#336);
#120=VERTEX_POINT('',#339);
#121=VERTEX_POINT('',#343);
#122=EDGE_CURVE('',#106,#106,#90,.T.);
#123=EDGE_CURVE('',#107,#107,#91,.T.);
#124=EDGE_CURVE('',#108,#108,#92,.T.);
#125=EDGE_CURVE('',#109,#109,#93,.T.);
#126=EDGE_CURVE('',#110,#110,#94,.T.);
#127=EDGE_CURVE('',#111,#111,#95,.T.);
#128=EDGE_CURVE('',#112,#112,#96,.T.);
#129=EDGE_CURVE('',#113,#113,#97,.T.);
#130=EDGE_CURVE('',#114,#114,#98,.T.);
#131=EDGE_CURVE('',#115,#115,#99,.T.);
#132=EDGE_CURVE('',#116,#116,#100,.T.);
#133=EDGE_CURVE('',#117,#117,#101,.T.);
#134=EDGE_CURVE('',#118,#118,#102,.T.);
#135=EDGE_CURVE('',#119,#119,#103,.T.);
#136=EDGE_CURVE('',#120,#120,#104,.T.);
#137=EDGE_CURVE('',#121,#121,#105,.T.);
#138=ORIENTED_EDGE('',*,*,#122,.T.);
#139=ORIENTED_EDGE('',*,*,#123,.F.);
#140=ORIENTED_EDGE('',*,*,#124,.F.);
#141=ORIENTED_EDGE('',*,*,#124,.T.);
#142=ORIENTED_EDGE('',*,*,#122,.F.);
#143=ORIENTED_EDGE('',*,*,#125,.T.);
#144=ORIENTED_EDGE('',*,*,#126,.F.);
#145=ORIENTED_EDGE('',*,*,#127,.F.);
#146=ORIENTED_EDGE('',*,*,#127,.T.);
#147=ORIENTED_EDGE('',*,*,#125,.F.);
#148=ORIENTED_EDGE('',*,*,#128,.T.);
#149=ORIENTED_EDGE('',*,*,#129,.T.);
#150=ORIENTED_EDGE('',*,*,#130,.F.);
#151=ORIENTED_EDGE('',*,*,#128,.F.);
#152=ORIENTED_EDGE('',*,*,#129,.F.);
#153=ORIENTED_EDGE('',*,*,#123,.T.);
#154=ORIENTED_EDGE('',*,*,#131,.T.);
#155=ORIENTED_EDGE('',*,*,#132,.T.);
#156=ORIENTED_EDGE('',*,*,#133,.F.);
#157=ORIENTED_EDGE('',*,*,#132,.F.);
#158=ORIENTED_EDGE('',*,*,#131,.F.);
#159=ORIENTED_EDGE('',*,*,#130,.T.);
#160=ORIENTED_EDGE('',*,*,#134,.T.);
#161=ORIENTED_EDGE('',*,*,#135,.T.);
#162=ORIENTED_EDGE('',*,*,#136,.T.);
#163=ORIENTED_EDGE('',*,*,#134,.F.);
#164=ORIENTED_EDGE('',*,*,#135,.F.);
#165=ORIENTED_EDGE('',*,*,#126,.T.);
#166=ORIENTED_EDGE('',*,*,#137,.T.);
#167=ORIENTED_EDGE('',*,*,#133,.T.);
#168=ORIENTED_EDGE('',*,*,#137,.F.);
#169=ORIENTED_EDGE('',*,*,#136,.F.);
#170=CONICAL_SURFACE('',#195,0.063,59.);
#171=CONICAL_SURFACE('',#197,0.13975,41.);
#172=CONICAL_SURFACE('',#201,0.063,59.);
#173=CONICAL_SURFACE('',#203,0.13975,41.);
#174=CONICAL_SURFACE('',#210,0.74375,14.420773127511);
#175=CONICAL_SURFACE('',#222,0.74375,14.420773127511);
#176=ADVANCED_FACE('',(#41),#170,.F.);
#177=ADVANCED_FACE('',(#42,#26),#171,.F.);
#178=ADVANCED_FACE('',(#43,#27),#23,.F.);
#179=ADVANCED_FACE('',(#44),#172,.F.);
#180=ADVANCED_FACE('',(#45,#28),#173,.F.);
#181=ADVANCED_FACE('',(#46,#29),#24,.F.);
#182=ADVANCED_FACE('',(#47,#30),#19,.T.);
#183=ADVANCED_FACE('',(#48,#31),#174,.T.);
#184=ADVANCED_FACE('',(#49,#32),#15,.T.);
#185=ADVANCED_FACE('',(#50,#33),#20,.T.);
#186=ADVANCED_FACE('',(#51,#34),#25,.T.);
#187=ADVANCED_FACE('',(#52,#35),#16,.F.);
#188=ADVANCED_FACE('',(#53,#36),#21,.T.);
#189=ADVANCED_FACE('',(#54,#37),#175,.T.);
#190=ADVANCED_FACE('',(#55,#38),#17,.F.);
#191=ADVANCED_FACE('',(#56,#39),#22,.T.);
#192=ADVANCED_FACE('',(#57,#40),#18,.F.);
#193=CLOSED_SHELL('',(#176,#177,#178,#179,#180,#181,#182,#183,#184,#185,
#186,#187,#188,#189,#190,#191,#192));
#194=AXIS2_PLACEMENT_3D('placement',#296,#228,#229);
#195=AXIS2_PLACEMENT_3D('',#297,#230,#231);
#196=AXIS2_PLACEMENT_3D('',#299,#232,#233);
#197=AXIS2_PLACEMENT_3D('',#300,#234,#235);
#198=AXIS2_PLACEMENT_3D('',#302,#236,#237);
#199=AXIS2_PLACEMENT_3D('',#304,#238,#239);
#200=AXIS2_PLACEMENT_3D('',#305,#240,#241);
#201=AXIS2_PLACEMENT_3D('',#306,#242,#243);
#202=AXIS2_PLACEMENT_3D('',#308,#244,#245);
#203=AXIS2_PLACEMENT_3D('',#309,#246,#247);
#204=AXIS2_PLACEMENT_3D('',#311,#248,#249);
#205=AXIS2_PLACEMENT_3D('',#313,#250,#251);
#206=AXIS2_PLACEMENT_3D('',#314,#252,#253);
#207=AXIS2_PLACEMENT_3D('',#315,#254,#255);
#208=AXIS2_PLACEMENT_3D('',#317,#256,#257);
#209=AXIS2_PLACEMENT_3D('',#319,#258,#259);
#210=AXIS2_PLACEMENT_3D('',#320,#260,#261);
#211=AXIS2_PLACEMENT_3D('',#322,#262,#263);
#212=AXIS2_PLACEMENT_3D('',#323,#264,#265);
#213=AXIS2_PLACEMENT_3D('',#324,#266,#267);
#214=AXIS2_PLACEMENT_3D('',#326,#268,#269);
#215=AXIS2_PLACEMENT_3D('',#328,#270,#271);
#216=AXIS2_PLACEMENT_3D('',#329,#272,#273);
#217=AXIS2_PLACEMENT_3D('',#331,#274,#275);
#218=AXIS2_PLACEMENT_3D('',#332,#276,#277);
#219=AXIS2_PLACEMENT_3D('',#333,#278,#279);
#220=AXIS2_PLACEMENT_3D('',#335,#280,#281);
#221=AXIS2_PLACEMENT_3D('',#337,#282,#283);
#222=AXIS2_PLACEMENT_3D('',#338,#284,#285);
#223=AXIS2_PLACEMENT_3D('',#340,#286,#287);
#224=AXIS2_PLACEMENT_3D('',#341,#288,#289);
#225=AXIS2_PLACEMENT_3D('',#342,#290,#291);
#226=AXIS2_PLACEMENT_3D('',#344,#292,#293);
#227=AXIS2_PLACEMENT_3D('',#345,#294,#295);
#228=DIRECTION('axis',(0.,0.,1.));
#229=DIRECTION('refdir',(1.,0.,0.));
#230=DIRECTION('center_axis',(0.,1.,0.));
#231=DIRECTION('ref_axis',(-1.,0.,0.));
#232=DIRECTION('center_axis',(0.,1.,0.));
#233=DIRECTION('ref_axis',(-1.,0.,0.));
#234=DIRECTION('center_axis',(0.,1.,0.));
#235=DIRECTION('ref_axis',(-1.,0.,0.));
#236=DIRECTION('center_axis',(0.,-1.,0.));
#237=DIRECTION('ref_axis',(-1.,0.,0.));
#238=DIRECTION('center_axis',(0.,1.,0.));
#239=DIRECTION('ref_axis',(-1.,0.,0.));
#240=DIRECTION('center_axis',(0.,1.,0.));
#241=DIRECTION('ref_axis',(-1.,0.,0.));
#242=DIRECTION('center_axis',(0.,-1.,0.));
#243=DIRECTION('ref_axis',(1.,0.,0.));
#244=DIRECTION('center_axis',(0.,-1.,0.));
#245=DIRECTION('ref_axis',(1.,0.,0.));
#246=DIRECTION('center_axis',(0.,-1.,0.));
#247=DIRECTION('ref_axis',(1.,0.,0.));
#248=DIRECTION('center_axis',(0.,1.,0.));
#249=DIRECTION('ref_axis',(1.,0.,0.));
#250=DIRECTION('center_axis',(0.,-1.,0.));
#251=DIRECTION('ref_axis',(1.,0.,0.));
#252=DIRECTION('center_axis',(0.,-1.,0.));
#253=DIRECTION('ref_axis',(1.,0.,0.));
#254=DIRECTION('center_axis',(0.,1.,0.));
#255=DIRECTION('ref_axis',(0.,0.,1.));
#256=DIRECTION('center_axis',(0.,1.,0.));
#257=DIRECTION('ref_axis',(1.22464679914735E-16,0.,-1.));
#258=DIRECTION('center_axis',(0.,-1.,0.));
#259=DIRECTION('ref_axis',(1.22464679914735E-16,0.,-1.));
#260=DIRECTION('center_axis',(0.,-1.,0.));
#261=DIRECTION('ref_axis',(0.,0.,1.));
#262=DIRECTION('center_axis',(0.,-1.,0.));
#263=DIRECTION('ref_axis',(1.,0.,0.));
#264=DIRECTION('center_axis',(0.,1.,0.));
#265=DIRECTION('ref_axis',(0.,0.,1.));
#266=DIRECTION('center_axis',(0.,-1.,0.));
#267=DIRECTION('ref_axis',(0.,0.,-1.));
#268=DIRECTION('center_axis',(0.,-1.,0.));
#269=DIRECTION('ref_axis',(-1.83697019872103E-16,0.,-1.));
#270=DIRECTION('center_axis',(0.,1.,0.));
#271=DIRECTION('ref_axis',(-1.83697019872103E-16,0.,-1.));
#272=DIRECTION('center_axis',(0.,1.,0.));
#273=DIRECTION('ref_axis',(1.,0.,0.));
#274=DIRECTION('center_axis',(0.,-1.,0.));
#275=DIRECTION('ref_axis',(6.12323399573677E-17,0.,-1.));
#276=DIRECTION('center_axis',(0.,-1.,0.));
#277=DIRECTION('ref_axis',(0.,0.,-1.));
#278=DIRECTION('center_axis',(0.,-1.,0.));
#279=DIRECTION('ref_axis',(0.,0.,-1.));
#280=DIRECTION('center_axis',(0.,-1.,0.));
#281=DIRECTION('ref_axis',(0.,0.,-1.));
#282=DIRECTION('center_axis',(0.,1.,0.));
#283=DIRECTION('ref_axis',(-1.22464679914735E-16,0.,-1.));
#284=DIRECTION('center_axis',(0.,1.,0.));
#285=DIRECTION('ref_axis',(0.,0.,1.));
#286=DIRECTION('center_axis',(0.,-1.,0.));
#287=DIRECTION('ref_axis',(1.,0.,0.));
#288=DIRECTION('center_axis',(0.,1.,0.));
#289=DIRECTION('ref_axis',(0.,0.,1.));
#290=DIRECTION('center_axis',(0.,1.,0.));
#291=DIRECTION('ref_axis',(0.,0.,1.));
#292=DIRECTION('center_axis',(0.,1.,0.));
#293=DIRECTION('ref_axis',(6.12323399573677E-17,0.,-1.));
#294=DIRECTION('center_axis',(0.,1.,0.));
#295=DIRECTION('ref_axis',(0.,0.,1.));
#296=CARTESIAN_POINT('',(0.,0.,0.));
#297=CARTESIAN_POINT('Origin',(0.,0.462145781001264,0.));
#298=CARTESIAN_POINT('',(-0.126,0.5,0.));
#299=CARTESIAN_POINT('Origin',(0.,0.5,0.));
#300=CARTESIAN_POINT('Origin',(0.,0.859182434400711,0.));
#301=CARTESIAN_POINT('',(-0.1535,0.875,0.));
#302=CARTESIAN_POINT('Origin',(0.,0.875,0.));
#303=CARTESIAN_POINT('',(-0.126,0.843364868801422,0.));
#304=CARTESIAN_POINT('Origin',(0.,0.843364868801422,0.));
#305=CARTESIAN_POINT('Origin',(0.,0.6875,0.));
#306=CARTESIAN_POINT('Origin',(0.,-0.462145781001264,0.));
#307=CARTESIAN_POINT('',(0.126,-0.5,0.));
#308=CARTESIAN_POINT('Origin',(0.,-0.5,0.));
#309=CARTESIAN_POINT('Origin',(0.,-0.859182434400711,0.));
#310=CARTESIAN_POINT('',(0.1535,-0.875,0.));
#311=CARTESIAN_POINT('Origin',(0.,-0.875,0.));
#312=CARTESIAN_POINT('',(0.126,-0.843364868801422,0.));
#313=CARTESIAN_POINT('Origin',(0.,-0.843364868801422,0.));
#314=CARTESIAN_POINT('Origin',(0.,-0.6875,0.));
#315=CARTESIAN_POINT('Origin',(0.,0.84375,0.));
#316=CARTESIAN_POINT('',(0.,0.851532532494082,0.693534491644378));
#317=CARTESIAN_POINT('Origin',(0.,0.851532532494082,0.));
#318=CARTESIAN_POINT('',(-1.6245407299623E-16,0.875,0.663269087500727));
#319=CARTESIAN_POINT('Origin',(0.,0.875,0.));
#320=CARTESIAN_POINT('Origin',(0.,0.656249999999999,0.));
#321=CARTESIAN_POINT('',(0.,0.437499999999999,0.8));
#322=CARTESIAN_POINT('Origin',(0.,0.437499999999999,0.));
#323=CARTESIAN_POINT('Origin',(6.13746421064038E-17,0.875,0.));
#324=CARTESIAN_POINT('Origin',(0.,0.406249999999999,0.));
#325=CARTESIAN_POINT('',(5.1664786839029E-17,0.437499999999999,0.84375));
#326=CARTESIAN_POINT('Origin',(0.,0.437499999999999,0.));
#327=CARTESIAN_POINT('',(2.67891487313484E-16,0.406249999999999,0.875));
#328=CARTESIAN_POINT('Origin',(0.,0.406249999999999,0.));
#329=CARTESIAN_POINT('Origin',(0.,0.,0.));
#330=CARTESIAN_POINT('',(-1.6073489238809E-16,-0.40625,0.875));
#331=CARTESIAN_POINT('Origin',(0.,-0.40625,0.));
#332=CARTESIAN_POINT('Origin',(0.,0.437499999999999,0.8));
#333=CARTESIAN_POINT('Origin',(0.,-0.84375,0.));
#334=CARTESIAN_POINT('',(0.,-0.851532532494082,0.693534491644379));
#335=CARTESIAN_POINT('Origin',(8.49334795290575E-17,-0.851532532494082,
0.));
#336=CARTESIAN_POINT('',(1.6245407299623E-16,-0.875,0.663269087500727));
#337=CARTESIAN_POINT('Origin',(0.,-0.875,0.));
#338=CARTESIAN_POINT('Origin',(0.,-0.65625,0.));
#339=CARTESIAN_POINT('',(0.,-0.4375,0.8));
#340=CARTESIAN_POINT('Origin',(0.,-0.4375,0.));
#341=CARTESIAN_POINT('Origin',(6.13746421064038E-17,-0.875,0.));
#342=CARTESIAN_POINT('Origin',(0.,-0.40625,0.));
#343=CARTESIAN_POINT('',(5.1664786839029E-17,-0.4375,0.84375));
#344=CARTESIAN_POINT('Origin',(0.,-0.4375,0.));
#345=CARTESIAN_POINT('Origin',(0.,-0.4375,0.875));
#346=UNCERTAINTY_MEASURE_WITH_UNIT(LENGTH_MEASURE(0.000393700787401575),
#350,'DISTANCE_ACCURACY_VALUE',
'Maximum model space distance between geometric entities at asserted c
onnectivities');
#347=UNCERTAINTY_MEASURE_WITH_UNIT(LENGTH_MEASURE(1.E-6),#351,
'DISTANCE_ACCURACY_VALUE',
'Maximum model space distance between geometric entities at asserted c
onnectivities');
#348=(
GEOMETRIC_REPRESENTATION_CONTEXT(3)
GLOBAL_UNCERTAINTY_ASSIGNED_CONTEXT((#346))
GLOBAL_UNIT_ASSIGNED_CONTEXT((#350,#356,#353))
REPRESENTATION_CONTEXT('','3D')
);
#349=(
GEOMETRIC_REPRESENTATION_CONTEXT(3)
GLOBAL_UNCERTAINTY_ASSIGNED_CONTEXT((#347))
GLOBAL_UNIT_ASSIGNED_CONTEXT((#351,#356,#353))
REPRESENTATION_CONTEXT('','3D')
);
#350=(
CONVERSION_BASED_UNIT('__CONSTANT UNIT inch',#352)
LENGTH_UNIT()
NAMED_UNIT(#355)
);
#351=(
LENGTH_UNIT()
NAMED_UNIT(*)
SI_UNIT(.MILLI.,.METRE.)
);
#352=LENGTH_MEASURE_WITH_UNIT(LENGTH_MEASURE(25.4),#351);
#353=(
NAMED_UNIT(*)
SI_UNIT($,.STERADIAN.)
SOLID_ANGLE_UNIT()
);
#354=DIMENSIONAL_EXPONENTS(0.,0.,0.,0.,0.,0.,0.);
#355=DIMENSIONAL_EXPONENTS(1.,0.,0.,0.,0.,0.,0.);
#356=(
CONVERSION_BASED_UNIT('degree',#358)
NAMED_UNIT(#354)
PLANE_ANGLE_UNIT()
);
#357=(
NAMED_UNIT(*)
PLANE_ANGLE_UNIT()
SI_UNIT($,.RADIAN.)
);
#358=PLANE_ANGLE_MEASURE_WITH_UNIT(PLANE_ANGLE_MEASURE(0.01745329252),#357);
#359=SHAPE_DEFINITION_REPRESENTATION(#360,#361);
#360=PRODUCT_DEFINITION_SHAPE('',$,#363);
#361=SHAPE_REPRESENTATION('',(#194),#348);
#362=PRODUCT_DEFINITION_CONTEXT('part definition',#367,'design');
#363=PRODUCT_DEFINITION('2015-1A Standoff Insulators',
'2015-1A Standoff Insulators',#364,#362);
#364=PRODUCT_DEFINITION_FORMATION('',$,#369);
#365=PRODUCT_RELATED_PRODUCT_CATEGORY('2015-1A Standoff Insulators',
'2015-1A Standoff Insulators',(#369));
#366=APPLICATION_PROTOCOL_DEFINITION('international standard',
'automotive_design',2009,#367);
#367=APPLICATION_CONTEXT(
'Core Data for Automotive Mechanical Design Process');
#368=PRODUCT_CONTEXT('part definition',#367,'mechanical');
#369=PRODUCT('2015-1A Standoff Insulators',
'2015-1A Standoff Insulators',$,(#368));
#370=PRESENTATION_STYLE_ASSIGNMENT((#371));
#371=SURFACE_STYLE_USAGE(.BOTH.,#372);
#372=SURFACE_SIDE_STYLE($,(#373));
#373=SURFACE_STYLE_FILL_AREA(#374);
#374=FILL_AREA_STYLE($,(#375));
#375=FILL_AREA_STYLE_COLOUR($,#376);
#376=COLOUR_RGB('',0.898039215686275,0.12156862745098,0.12156862745098);
ENDSEC;
END-ISO-10303-21;
